ISO-10303-21;
HEADER;
FILE_DESCRIPTION(('CATIA V5 STEP Exchange'),'2;1');

FILE_NAME('C:\\Users\\Astroboy\\Desktop\\RIDIX\\work\\RDCO106.63400.stp','2017-03-01T09:17:08+00:00',('none'),('none'),'CATIA Version 5 Release 19 GA (IN-10)','CATIA V5 STEP AP203','none');

FILE_SCHEMA(('CONFIG_CONTROL_DESIGN'));

ENDSEC;
/* file written by CATIA V5R19 */
DATA;
#5=PRODUCT('RDCO106.63400','','COLONNA GUIDA\X2\000D\X0\\X2\000A\X0\NORMATIVE AUTOMOTIVE\X2\000D\X0\\X2\000A\X0\',(#2)) ;
#1=APPLICATION_CONTEXT('configuration controlled 3D design of mechanical parts and assemblies') ;
#14=PRODUCT_DEFINITION('',' ',#6,#3) ;
#16=SECURITY_CLASSIFICATION(' ',' ',#15) ;
#15=SECURITY_CLASSIFICATION_LEVEL('unclassified') ;
#47=CARTESIAN_POINT(' ',(0.,0.,0.)) ;
#51=CARTESIAN_POINT('Line Origine',(0.,0.,0.)) ;
#55=CARTESIAN_POINT('Limit',(0.,0.,0.)) ;
#56=CARTESIAN_POINT('Limit',(20.,0.,0.)) ;
#63=CARTESIAN_POINT('Line Origine',(0.,0.,0.)) ;
#67=CARTESIAN_POINT('Limit',(0.,0.,0.)) ;
#68=CARTESIAN_POINT('Limit',(0.,20.,0.)) ;
#72=CARTESIAN_POINT('Line Origine',(0.,0.,0.)) ;
#76=CARTESIAN_POINT('Limit',(0.,0.,0.)) ;
#77=CARTESIAN_POINT('Limit',(0.,0.,20.)) ;
#81=CARTESIAN_POINT('Punto.4',(0.,0.,0.)) ;
#83=CARTESIAN_POINT('Axis2P3D Location',(0.,0.,120.)) ;
#88=CARTESIAN_POINT('Axis2P3D Location',(0.,0.,-76.)) ;
#92=CARTESIAN_POINT('Vertex',(-27.6438506995,15.101904466,-76.)) ;
#94=CARTESIAN_POINT('Vertex',(27.6438506995,-15.101904466,-76.)) ;
#97=CARTESIAN_POINT('Line Origine',(-27.6438506995,15.101904466,117.)) ;
#101=CARTESIAN_POINT('Vertex',(-27.6438506995,15.101904466,-8.52651282912E-014)) ;
#104=CARTESIAN_POINT('Axis2P3D Location',(0.,0.,-5.68434188608E-014)) ;
#108=CARTESIAN_POINT('Vertex',(27.6438506995,-15.101904466,-8.52651282912E-014)) ;
#111=CARTESIAN_POINT('Line Origine',(27.6438506995,-15.101904466,117.)) ;
#123=CARTESIAN_POINT('Axis2P3D Location',(0.,0.,-76.)) ;
#128=CARTESIAN_POINT('Axis2P3D Location',(0.,0.,-5.68434188608E-014)) ;
#140=CARTESIAN_POINT('Axis2P3D Location',(0.,0.,8.)) ;
#145=CARTESIAN_POINT('Line Origine',(-27.4244550591,14.9820480814,4.)) ;
#149=CARTESIAN_POINT('Vertex',(-27.2050594186,14.8621916967,8.)) ;
#152=CARTESIAN_POINT('Axis2P3D Location',(0.,0.,8.)) ;
#156=CARTESIAN_POINT('Vertex',(27.2050594186,-14.8621916967,8.)) ;
#159=CARTESIAN_POINT('Line Origine',(27.4244550591,-14.9820480814,4.)) ;
#171=CARTESIAN_POINT('Axis2P3D Location',(0.,0.,8.)) ;
#183=CARTESIAN_POINT('Axis2P3D Location',(-31.5,0.,8.)) ;
#188=CARTESIAN_POINT('Axis2P3D Location',(0.,0.,8.)) ;
#192=CARTESIAN_POINT('Vertex',(27.6438506995,-15.101904466,8.)) ;
#194=CARTESIAN_POINT('Vertex',(-27.6438506995,15.101904466,8.)) ;
#197=CARTESIAN_POINT('Axis2P3D Location',(0.,0.,8.)) ;
#211=CARTESIAN_POINT('Axis2P3D Location',(3.62376795238E-013,0.,320.)) ;
#216=CARTESIAN_POINT('Axis2P3D Location',(-4.4408920985E-016,3.33066907388E-015,320.)) ;
#220=CARTESIAN_POINT('Vertex',(-22.5988041764,12.345782989,320.)) ;
#222=CARTESIAN_POINT('Vertex',(22.5988041086,-12.3457831132,320.)) ;
#225=CARTESIAN_POINT('Axis2P3D Location',(-2.22044604925E-016,2.88657986403E-015,320.)) ;
#235=CARTESIAN_POINT('Axis2P3D Location',(-3.5527136788E-015,-7.1054273576E-015,316.)) ;
#240=CARTESIAN_POINT('Axis2P3D Location',(22.5988041236,-12.3457830856,316.)) ;
#244=CARTESIAN_POINT('Vertex',(25.9895228213,-14.1981410271,317.03527618)) ;
#247=CARTESIAN_POINT('Axis2P3D Location',(-22.5988041764,12.345782989,316.)) ;
#251=CARTESIAN_POINT('Vertex',(-25.9895228213,14.1981410271,317.03527618)) ;
#254=CARTESIAN_POINT('Axis2P3D Location',(-3.5527136788E-015,-7.1054273576E-015,317.03527618)) ;
#266=CARTESIAN_POINT('Axis2P3D Location',(1.50990331349E-014,1.7763568394E-014,316.)) ;
#271=CARTESIAN_POINT('Axis2P3D Location',(1.50990331349E-014,1.7763568394E-014,317.03527618)) ;
#283=CARTESIAN_POINT('Axis2P3D Location',(0.,0.,-80.)) ;
#288=CARTESIAN_POINT('Line Origine',(-27.4902936486,15.0180158668,-78.)) ;
#292=CARTESIAN_POINT('Vertex',(-27.6170839419,15.0872817197,-76.348622971)) ;
#295=CARTESIAN_POINT('Line Origine',(27.4902936486,-15.0180158668,-78.)) ;
#299=CARTESIAN_POINT('Vertex',(27.6170839419,-15.0872817197,-76.348622971)) ;
#302=CARTESIAN_POINT('Axis2P3D Location',(0.,0.,-76.348622971)) ;
#314=CARTESIAN_POINT('Axis2P3D Location',(0.,0.,-76.348622971)) ;
#326=CARTESIAN_POINT('Axis2P3D Location',(-31.1500453459,0.,-80.)) ;
#331=CARTESIAN_POINT('Axis2P3D Location',(3.5527136788E-015,2.77555756156E-017,-80.)) ;
#335=CARTESIAN_POINT('Vertex',(24.1201115614,-13.1768769997,-80.)) ;
#337=CARTESIAN_POINT('Vertex',(-24.1201115607,13.1768770009,-80.)) ;
#340=CARTESIAN_POINT('Axis2P3D Location',(-3.5527136788E-015,3.44169137634E-015,-80.)) ;
#350=CARTESIAN_POINT('Axis2P3D Location',(2.6645352591E-015,3.5527136788E-015,-76.)) ;
#355=CARTESIAN_POINT('Axis2P3D Location',(24.1201115607,-13.1768770009,-76.)) ;
#360=CARTESIAN_POINT('Axis2P3D Location',(-24.1201115607,13.1768770009,-76.)) ;
#372=CARTESIAN_POINT('Axis2P3D Location',(-2.6645352591E-015,-3.5527136788E-015,-76.)) ;
#384=CARTESIAN_POINT('Line Origine',(27.6438506995,-15.101904466,117.)) ;
#388=CARTESIAN_POINT('Vertex',(27.6438506995,-15.101904466,309.47339001)) ;
#391=CARTESIAN_POINT('Line Origine',(-27.6438506995,15.101904466,117.)) ;
#395=CARTESIAN_POINT('Vertex',(-27.6438506995,15.101904466,309.47339001)) ;
#398=CARTESIAN_POINT('Axis2P3D Location',(0.,0.,309.47339001)) ;
#410=CARTESIAN_POINT('Axis2P3D Location',(0.,0.,309.47339001)) ;
#422=CARTESIAN_POINT('Axis2P3D Location',(0.,0.,320.)) ;
#427=CARTESIAN_POINT('Line Origine',(-26.4681130058,14.4595960365,315.)) ;
#431=CARTESIAN_POINT('Vertex',(-27.5242390969,15.0365603497,310.50866619)) ;
#434=CARTESIAN_POINT('Line Origine',(26.4681130058,-14.4595960365,315.)) ;
#438=CARTESIAN_POINT('Vertex',(27.5242390969,-15.0365603497,310.50866619)) ;
#441=CARTESIAN_POINT('Axis2P3D Location',(0.,0.,310.50866619)) ;
#453=CARTESIAN_POINT('Axis2P3D Location',(0.,0.,310.50866619)) ;
#465=CARTESIAN_POINT('Axis2P3D Location',(3.5527136788E-015,0.,309.47339001)) ;
#470=CARTESIAN_POINT('Axis2P3D Location',(24.133520452,-13.1842023116,309.47339001)) ;
#475=CARTESIAN_POINT('Axis2P3D Location',(-24.133520452,13.1842023116,309.47339001)) ;
#487=CARTESIAN_POINT('Axis2P3D Location',(-5.21804821574E-015,-5.3290705182E-015,309.47339001)) ;
#52=DIRECTION('Vector Direction',(1.,0.,0.)) ;
#64=DIRECTION('Vector Direction',(0.,1.,0.)) ;
#73=DIRECTION('Vector Direction',(0.,0.,1.)) ;
#84=DIRECTION('Axis2P3D Direction',(0.,0.,-1.)) ;
#85=DIRECTION('Axis2P3D XDirection',(-0.87758256189,0.479425538604,-0.)) ;
#89=DIRECTION('Axis2P3D Direction',(0.,0.,-1.)) ;
#98=DIRECTION('Vector Direction',(0.,0.,-1.)) ;
#105=DIRECTION('Axis2P3D Direction',(0.,0.,-1.)) ;
#112=DIRECTION('Vector Direction',(0.,0.,-1.)) ;
#124=DIRECTION('Axis2P3D Direction',(0.,0.,-1.)) ;
#129=DIRECTION('Axis2P3D Direction',(0.,0.,-1.)) ;
#141=DIRECTION('Axis2P3D Direction',(0.,0.,-1.)) ;
#142=DIRECTION('Axis2P3D XDirection',(-0.87758256189,0.479425538604,0.)) ;
#146=DIRECTION('Vector Direction',(-0.0547420961704,0.0299057434372,-0.998052578483)) ;
#153=DIRECTION('Axis2P3D Direction',(0.,0.,-1.)) ;
#160=DIRECTION('Vector Direction',(0.0547420961704,-0.0299057434372,-0.998052578483)) ;
#172=DIRECTION('Axis2P3D Direction',(0.,0.,-1.)) ;
#184=DIRECTION('Axis2P3D Direction',(0.,0.,-1.)) ;
#185=DIRECTION('Axis2P3D XDirection',(1.,0.,0.)) ;
#189=DIRECTION('Axis2P3D Direction',(0.,0.,-1.)) ;
#198=DIRECTION('Axis2P3D Direction',(0.,0.,-1.)) ;
#212=DIRECTION('Axis2P3D Direction',(0.,0.,-1.)) ;
#213=DIRECTION('Axis2P3D XDirection',(1.,0.,0.)) ;
#217=DIRECTION('Axis2P3D Direction',(0.,0.,-1.)) ;
#226=DIRECTION('Axis2P3D Direction',(0.,0.,-1.)) ;
#236=DIRECTION('Axis2P3D Direction',(0.,0.,-1.)) ;
#237=DIRECTION('Axis2P3D XDirection',(0.997893309731,-0.0648763623722,0.)) ;
#241=DIRECTION('Axis2P3D Direction',(0.479425542355,0.877582559841,0.)) ;
#248=DIRECTION('Axis2P3D Direction',(-0.479425538604,-0.87758256189,-0.)) ;
#255=DIRECTION('Axis2P3D Direction',(0.,0.,-1.)) ;
#267=DIRECTION('Axis2P3D Direction',(-0.,0.,-1.)) ;
#268=DIRECTION('Axis2P3D XDirection',(-0.87758256189,0.479425538604,0.)) ;
#272=DIRECTION('Axis2P3D Direction',(-0.,0.,-1.)) ;
#284=DIRECTION('Axis2P3D Direction',(-0.,-0.,1.)) ;
#285=DIRECTION('Axis2P3D XDirection',(-0.87758256189,0.479425538604,0.)) ;
#289=DIRECTION('Vector Direction',(-0.0764863600039,0.0417846889092,0.996194698092)) ;
#296=DIRECTION('Vector Direction',(0.0764863600039,-0.0417846889092,0.996194698092)) ;
#303=DIRECTION('Axis2P3D Direction',(-0.,0.,1.)) ;
#315=DIRECTION('Axis2P3D Direction',(-0.,0.,1.)) ;
#327=DIRECTION('Axis2P3D Direction',(0.,0.,-1.)) ;
#328=DIRECTION('Axis2P3D XDirection',(1.,0.,0.)) ;
#332=DIRECTION('Axis2P3D Direction',(0.,0.,-1.)) ;
#341=DIRECTION('Axis2P3D Direction',(0.,0.,-1.)) ;
#351=DIRECTION('Axis2P3D Direction',(0.,0.,-1.)) ;
#352=DIRECTION('Axis2P3D XDirection',(0.885913995251,-0.463849537047,0.)) ;
#356=DIRECTION('Axis2P3D Direction',(0.479425538604,0.87758256189,0.)) ;
#361=DIRECTION('Axis2P3D Direction',(-0.479425538604,-0.87758256189,-0.)) ;
#373=DIRECTION('Axis2P3D Direction',(-0.,0.,-1.)) ;
#374=DIRECTION('Axis2P3D XDirection',(-0.87758256189,0.479425538604,0.)) ;
#385=DIRECTION('Vector Direction',(0.,0.,-1.)) ;
#392=DIRECTION('Vector Direction',(0.,0.,-1.)) ;
#399=DIRECTION('Axis2P3D Direction',(0.,0.,-1.)) ;
#411=DIRECTION('Axis2P3D Direction',(0.,0.,-1.)) ;
#423=DIRECTION('Axis2P3D Direction',(0.,0.,-1.)) ;
#424=DIRECTION('Axis2P3D XDirection',(-0.87758256189,0.479425538604,0.)) ;
#428=DIRECTION('Vector Direction',(-0.227135080667,0.124084460099,-0.965925826289)) ;
#435=DIRECTION('Vector Direction',(0.227135080667,-0.124084460099,-0.965925826289)) ;
#442=DIRECTION('Axis2P3D Direction',(0.,0.,-1.)) ;
#454=DIRECTION('Axis2P3D Direction',(0.,0.,-1.)) ;
#466=DIRECTION('Axis2P3D Direction',(0.,-0.,1.)) ;
#467=DIRECTION('Axis2P3D XDirection',(-0.87758256189,0.479425538604,0.)) ;
#471=DIRECTION('Axis2P3D Direction',(-0.479425538604,-0.87758256189,0.)) ;
#476=DIRECTION('Axis2P3D Direction',(0.479425538604,0.87758256189,0.)) ;
#488=DIRECTION('Axis2P3D Direction',(-0.,0.,-1.)) ;
#489=DIRECTION('Axis2P3D XDirection',(-0.87758256189,0.479425538604,0.)) ;
#48=AXIS2_PLACEMENT_3D(' ',#47,$,$) ;
#86=AXIS2_PLACEMENT_3D('Cylinder Axis2P3D',#83,#84,#85) ;
#90=AXIS2_PLACEMENT_3D('Circle Axis2P3D',#88,#89,$) ;
#106=AXIS2_PLACEMENT_3D('Circle Axis2P3D',#104,#105,$) ;
#125=AXIS2_PLACEMENT_3D('Circle Axis2P3D',#123,#124,$) ;
#130=AXIS2_PLACEMENT_3D('Circle Axis2P3D',#128,#129,$) ;
#143=AXIS2_PLACEMENT_3D('Cone Axis2P3D',#140,#141,#142) ;
#154=AXIS2_PLACEMENT_3D('Circle Axis2P3D',#152,#153,$) ;
#173=AXIS2_PLACEMENT_3D('Circle Axis2P3D',#171,#172,$) ;
#186=AXIS2_PLACEMENT_3D('Plane Axis2P3D',#183,#184,#185) ;
#190=AXIS2_PLACEMENT_3D('Circle Axis2P3D',#188,#189,$) ;
#199=AXIS2_PLACEMENT_3D('Circle Axis2P3D',#197,#198,$) ;
#214=AXIS2_PLACEMENT_3D('Plane Axis2P3D',#211,#212,#213) ;
#218=AXIS2_PLACEMENT_3D('Circle Axis2P3D',#216,#217,$) ;
#227=AXIS2_PLACEMENT_3D('Circle Axis2P3D',#225,#226,$) ;
#238=AXIS2_PLACEMENT_3D('Torus Axis2P3D',#235,#236,#237) ;
#242=AXIS2_PLACEMENT_3D('Circle Axis2P3D',#240,#241,$) ;
#249=AXIS2_PLACEMENT_3D('Circle Axis2P3D',#247,#248,$) ;
#256=AXIS2_PLACEMENT_3D('Circle Axis2P3D',#254,#255,$) ;
#269=AXIS2_PLACEMENT_3D('Torus Axis2P3D',#266,#267,#268) ;
#273=AXIS2_PLACEMENT_3D('Circle Axis2P3D',#271,#272,$) ;
#286=AXIS2_PLACEMENT_3D('Cone Axis2P3D',#283,#284,#285) ;
#304=AXIS2_PLACEMENT_3D('Circle Axis2P3D',#302,#303,$) ;
#316=AXIS2_PLACEMENT_3D('Circle Axis2P3D',#314,#315,$) ;
#329=AXIS2_PLACEMENT_3D('Plane Axis2P3D',#326,#327,#328) ;
#333=AXIS2_PLACEMENT_3D('Circle Axis2P3D',#331,#332,$) ;
#342=AXIS2_PLACEMENT_3D('Circle Axis2P3D',#340,#341,$) ;
#353=AXIS2_PLACEMENT_3D('Torus Axis2P3D',#350,#351,#352) ;
#357=AXIS2_PLACEMENT_3D('Circle Axis2P3D',#355,#356,$) ;
#362=AXIS2_PLACEMENT_3D('Circle Axis2P3D',#360,#361,$) ;
#375=AXIS2_PLACEMENT_3D('Torus Axis2P3D',#372,#373,#374) ;
#400=AXIS2_PLACEMENT_3D('Circle Axis2P3D',#398,#399,$) ;
#412=AXIS2_PLACEMENT_3D('Circle Axis2P3D',#410,#411,$) ;
#425=AXIS2_PLACEMENT_3D('Cone Axis2P3D',#422,#423,#424) ;
#443=AXIS2_PLACEMENT_3D('Circle Axis2P3D',#441,#442,$) ;
#455=AXIS2_PLACEMENT_3D('Circle Axis2P3D',#453,#454,$) ;
#468=AXIS2_PLACEMENT_3D('Torus Axis2P3D',#465,#466,#467) ;
#472=AXIS2_PLACEMENT_3D('Circle Axis2P3D',#470,#471,$) ;
#477=AXIS2_PLACEMENT_3D('Circle Axis2P3D',#475,#476,$) ;
#490=AXIS2_PLACEMENT_3D('Torus Axis2P3D',#487,#488,#489) ;
#40=PRODUCT_DEFINITION_SHAPE(' ',' ',#14) ;
#59=COMPOSITE_CURVE('Linea.1',(#58),.U.) ;
#71=COMPOSITE_CURVE('Linea.2',(#70),.U.) ;
#80=COMPOSITE_CURVE('Linea.3',(#79),.U.) ;
#58=COMPOSITE_CURVE_SEGMENT(.DISCONTINUOUS.,.T.,#57) ;
#70=COMPOSITE_CURVE_SEGMENT(.DISCONTINUOUS.,.T.,#69) ;
#79=COMPOSITE_CURVE_SEGMENT(.DISCONTINUOUS.,.T.,#78) ;
#31=APPROVAL_PERSON_ORGANIZATION(#25,#21,#19) ;
#25=PERSON_AND_ORGANIZATION(#22,#23) ;
#22=PERSON(' ',' ',' ',$,$,$) ;
#23=ORGANIZATION(' ',' ',' ') ;
#21=APPROVAL(#20,' ') ;
#20=APPROVAL_STATUS('not_yet_approved') ;
#19=APPROVAL_ROLE('APPROVER') ;
#13=DATE_AND_TIME(#11,#12) ;
#12=LOCAL_TIME(10,17,7.,#10) ;
#10=COORDINATED_UNIVERSAL_TIME_OFFSET(0,0,.AHEAD.) ;
#117=ORIENTED_EDGE('',*,*,#96,.F.) ;
#118=ORIENTED_EDGE('',*,*,#103,.T.) ;
#119=ORIENTED_EDGE('',*,*,#110,.T.) ;
#120=ORIENTED_EDGE('',*,*,#115,.F.) ;
#134=ORIENTED_EDGE('',*,*,#127,.F.) ;
#135=ORIENTED_EDGE('',*,*,#115,.T.) ;
#136=ORIENTED_EDGE('',*,*,#132,.T.) ;
#137=ORIENTED_EDGE('',*,*,#103,.F.) ;
#165=ORIENTED_EDGE('',*,*,#110,.F.) ;
#166=ORIENTED_EDGE('',*,*,#151,.T.) ;
#167=ORIENTED_EDGE('',*,*,#158,.T.) ;
#168=ORIENTED_EDGE('',*,*,#163,.F.) ;
#177=ORIENTED_EDGE('',*,*,#132,.F.) ;
#178=ORIENTED_EDGE('',*,*,#163,.T.) ;
#179=ORIENTED_EDGE('',*,*,#175,.T.) ;
#180=ORIENTED_EDGE('',*,*,#151,.F.) ;
#203=ORIENTED_EDGE('',*,*,#196,.T.) ;
#204=ORIENTED_EDGE('',*,*,#201,.T.) ;
#207=ORIENTED_EDGE('',*,*,#158,.F.) ;
#208=ORIENTED_EDGE('',*,*,#175,.F.) ;
#231=ORIENTED_EDGE('',*,*,#224,.F.) ;
#232=ORIENTED_EDGE('',*,*,#229,.F.) ;
#260=ORIENTED_EDGE('',*,*,#246,.T.) ;
#261=ORIENTED_EDGE('',*,*,#229,.T.) ;
#262=ORIENTED_EDGE('',*,*,#253,.F.) ;
#263=ORIENTED_EDGE('',*,*,#258,.F.) ;
#277=ORIENTED_EDGE('',*,*,#253,.T.) ;
#278=ORIENTED_EDGE('',*,*,#224,.T.) ;
#279=ORIENTED_EDGE('',*,*,#246,.F.) ;
#280=ORIENTED_EDGE('',*,*,#275,.F.) ;
#308=ORIENTED_EDGE('',*,*,#294,.T.) ;
#309=ORIENTED_EDGE('',*,*,#96,.T.) ;
#310=ORIENTED_EDGE('',*,*,#301,.F.) ;
#311=ORIENTED_EDGE('',*,*,#306,.F.) ;
#320=ORIENTED_EDGE('',*,*,#301,.T.) ;
#321=ORIENTED_EDGE('',*,*,#127,.T.) ;
#322=ORIENTED_EDGE('',*,*,#294,.F.) ;
#323=ORIENTED_EDGE('',*,*,#318,.F.) ;
#346=ORIENTED_EDGE('',*,*,#339,.T.) ;
#347=ORIENTED_EDGE('',*,*,#344,.T.) ;
#366=ORIENTED_EDGE('',*,*,#359,.T.) ;
#367=ORIENTED_EDGE('',*,*,#318,.T.) ;
#368=ORIENTED_EDGE('',*,*,#364,.F.) ;
#369=ORIENTED_EDGE('',*,*,#339,.F.) ;
#378=ORIENTED_EDGE('',*,*,#364,.T.) ;
#379=ORIENTED_EDGE('',*,*,#306,.T.) ;
#380=ORIENTED_EDGE('',*,*,#359,.F.) ;
#381=ORIENTED_EDGE('',*,*,#344,.F.) ;
#404=ORIENTED_EDGE('',*,*,#390,.F.) ;
#405=ORIENTED_EDGE('',*,*,#201,.F.) ;
#406=ORIENTED_EDGE('',*,*,#397,.T.) ;
#407=ORIENTED_EDGE('',*,*,#402,.T.) ;
#416=ORIENTED_EDGE('',*,*,#397,.F.) ;
#417=ORIENTED_EDGE('',*,*,#196,.F.) ;
#418=ORIENTED_EDGE('',*,*,#390,.T.) ;
#419=ORIENTED_EDGE('',*,*,#414,.T.) ;
#447=ORIENTED_EDGE('',*,*,#433,.T.) ;
#448=ORIENTED_EDGE('',*,*,#275,.T.) ;
#449=ORIENTED_EDGE('',*,*,#440,.F.) ;
#450=ORIENTED_EDGE('',*,*,#445,.F.) ;
#459=ORIENTED_EDGE('',*,*,#440,.T.) ;
#460=ORIENTED_EDGE('',*,*,#258,.T.) ;
#461=ORIENTED_EDGE('',*,*,#433,.F.) ;
#462=ORIENTED_EDGE('',*,*,#457,.F.) ;
#481=ORIENTED_EDGE('',*,*,#474,.T.) ;
#482=ORIENTED_EDGE('',*,*,#457,.T.) ;
#483=ORIENTED_EDGE('',*,*,#479,.F.) ;
#484=ORIENTED_EDGE('',*,*,#414,.F.) ;
#493=ORIENTED_EDGE('',*,*,#479,.T.) ;
#494=ORIENTED_EDGE('',*,*,#445,.T.) ;
#495=ORIENTED_EDGE('',*,*,#474,.F.) ;
#496=ORIENTED_EDGE('',*,*,#402,.F.) ;
#209=FACE_BOUND('',#206,.T.) ;
#82=CLOSED_SHELL('Closed Shell',(#122,#139,#170,#182,#210,#234,#265,#282,#313,#325,#349,#371,#383,#409,#421,#452,#464,#486,#498)) ;
#53=VECTOR('Line Direction',#52,1.) ;
#65=VECTOR('Line Direction',#64,1.) ;
#74=VECTOR('Line Direction',#73,1.) ;
#99=VECTOR('Line Direction',#98,1.) ;
#113=VECTOR('Line Direction',#112,1.) ;
#147=VECTOR('Line Direction',#146,1.) ;
#161=VECTOR('Line Direction',#160,1.) ;
#290=VECTOR('Line Direction',#289,1.) ;
#297=VECTOR('Line Direction',#296,1.) ;
#386=VECTOR('Line Direction',#385,1.) ;
#393=VECTOR('Line Direction',#392,1.) ;
#429=VECTOR('Line Direction',#428,1.) ;
#436=VECTOR('Line Direction',#435,1.) ;
#500=ADVANCED_BREP_SHAPE_REPRESENTATION('NONE',(#499),#46) ;
#49=SHAPE_REPRESENTATION(' ',(#48),#46) ;
#122=ADVANCED_FACE('PartBody',(#121),#87,.T.) ;
#139=ADVANCED_FACE('PartBody',(#138),#87,.T.) ;
#170=ADVANCED_FACE('PartBody',(#169),#144,.T.) ;
#182=ADVANCED_FACE('PartBody',(#181),#144,.T.) ;
#210=ADVANCED_FACE('PartBody',(#205,#209),#187,.T.) ;
#234=ADVANCED_FACE('PartBody',(#233),#215,.F.) ;
#265=ADVANCED_FACE('PartBody',(#264),#239,.T.) ;
#282=ADVANCED_FACE('PartBody',(#281),#270,.T.) ;
#313=ADVANCED_FACE('PartBody',(#312),#287,.T.) ;
#325=ADVANCED_FACE('PartBody',(#324),#287,.T.) ;
#349=ADVANCED_FACE('PartBody',(#348),#330,.T.) ;
#371=ADVANCED_FACE('PartBody',(#370),#354,.T.) ;
#383=ADVANCED_FACE('PartBody',(#382),#376,.T.) ;
#409=ADVANCED_FACE('PartBody',(#408),#87,.T.) ;
#421=ADVANCED_FACE('PartBody',(#420),#87,.T.) ;
#452=ADVANCED_FACE('PartBody',(#451),#426,.T.) ;
#464=ADVANCED_FACE('PartBody',(#463),#426,.T.) ;
#486=ADVANCED_FACE('PartBody',(#485),#469,.T.) ;
#498=ADVANCED_FACE('PartBody',(#497),#491,.T.) ;
#4=APPLICATION_PROTOCOL_DEFINITION('international standard','config_control_design',1994,#1) ;
#32=APPROVAL_DATE_TIME(#13,#21) ;
#499=MANIFOLD_SOLID_BREP('PartBody',#82) ;
#11=CALENDAR_DATE(2017,1,3) ;
#30=CC_DESIGN_APPROVAL(#21,(#16,#6,#14)) ;
#18=CC_DESIGN_DATE_AND_TIME_ASSIGNMENT(#13,#17,(#16)) ;
#29=CC_DESIGN_DATE_AND_TIME_ASSIGNMENT(#13,#28,(#14)) ;
#17=DATE_TIME_ROLE('classification_date') ;
#28=DATE_TIME_ROLE('creation_date') ;
#27=CC_DESIGN_PERSON_AND_ORGANIZATION_ASSIGNMENT(#25,#26,(#16)) ;
#33=CC_DESIGN_PERSON_AND_ORGANIZATION_ASSIGNMENT(#25,#34,(#6)) ;
#35=CC_DESIGN_PERSON_AND_ORGANIZATION_ASSIGNMENT(#25,#36,(#6,#14)) ;
#37=CC_DESIGN_PERSON_AND_ORGANIZATION_ASSIGNMENT(#25,#38,(#5)) ;
#26=PERSON_AND_ORGANIZATION_ROLE('classification_officer') ;
#34=PERSON_AND_ORGANIZATION_ROLE('design_supplier') ;
#36=PERSON_AND_ORGANIZATION_ROLE('creator') ;
#38=PERSON_AND_ORGANIZATION_ROLE('design_owner') ;
#39=CC_DESIGN_SECURITY_CLASSIFICATION(#16,(#6)) ;
#91=CIRCLE('generated circle',#90,31.5) ;
#107=CIRCLE('generated circle',#106,31.5) ;
#126=CIRCLE('generated circle',#125,31.5) ;
#131=CIRCLE('generated circle',#130,31.5) ;
#155=CIRCLE('generated circle',#154,31.) ;
#174=CIRCLE('generated circle',#173,31.) ;
#191=CIRCLE('generated circle',#190,31.5) ;
#200=CIRCLE('generated circle',#199,31.5) ;
#219=CIRCLE('generated circle',#218,25.7512001238) ;
#228=CIRCLE('generated circle',#227,25.7512001238) ;
#243=CIRCLE('generated circle',#242,4.) ;
#250=CIRCLE('generated circle',#249,4.) ;
#257=CIRCLE('generated circle',#256,29.6149034289) ;
#274=CIRCLE('generated circle',#273,29.6149034289) ;
#305=CIRCLE('generated circle',#304,31.4694994422) ;
#317=CIRCLE('generated circle',#316,31.4694994422) ;
#334=CIRCLE('generated circle',#333,27.4847206498) ;
#343=CIRCLE('generated circle',#342,27.4847206498) ;
#358=CIRCLE('generated circle',#357,4.) ;
#363=CIRCLE('generated circle',#362,4.) ;
#401=CIRCLE('generated circle',#400,31.5) ;
#413=CIRCLE('generated circle',#412,31.5) ;
#444=CIRCLE('generated circle',#443,31.3637033052) ;
#456=CIRCLE('generated circle',#455,31.3637033052) ;
#473=CIRCLE('generated circle',#472,4.) ;
#478=CIRCLE('generated circle',#477,4.) ;
#144=CONICAL_SURFACE('Cone',#143,31.,0.062418809996) ;
#287=CONICAL_SURFACE('Cone',#286,31.1500453459,0.0872664625997) ;
#426=CONICAL_SURFACE('Cone',#425,28.8205080757,0.261799387799) ;
#62=SHAPE_REPRESENTATION_RELATIONSHIP(' ',' ',#49,#60) ;
#501=SHAPE_REPRESENTATION_RELATIONSHIP(' ',' ',#49,#500) ;
#87=CYLINDRICAL_SURFACE('generated cylinder',#86,31.5) ;
#239=TOROIDAL_SURFACE('homeo Torus',#238,25.7512001238,4.) ;
#270=TOROIDAL_SURFACE('homeo Torus',#269,25.7512001238,4.) ;
#354=TOROIDAL_SURFACE('homeo Torus',#353,27.4847206498,4.) ;
#376=TOROIDAL_SURFACE('homeo Torus',#375,27.4847206498,4.) ;
#469=TOROIDAL_SURFACE('homeo Torus',#468,27.5,4.) ;
#491=TOROIDAL_SURFACE('homeo Torus',#490,27.5,4.) ;
#3=DESIGN_CONTEXT(' ',#1,'design') ;
#96=EDGE_CURVE('',#93,#95,#91,.T.) ;
#103=EDGE_CURVE('',#93,#102,#100,.F.) ;
#110=EDGE_CURVE('',#102,#109,#107,.T.) ;
#115=EDGE_CURVE('',#95,#109,#114,.F.) ;
#127=EDGE_CURVE('',#95,#93,#126,.T.) ;
#132=EDGE_CURVE('',#109,#102,#131,.T.) ;
#151=EDGE_CURVE('',#102,#150,#148,.F.) ;
#158=EDGE_CURVE('',#150,#157,#155,.T.) ;
#163=EDGE_CURVE('',#109,#157,#162,.F.) ;
#175=EDGE_CURVE('',#157,#150,#174,.T.) ;
#196=EDGE_CURVE('',#193,#195,#191,.T.) ;
#201=EDGE_CURVE('',#195,#193,#200,.T.) ;
#224=EDGE_CURVE('',#221,#223,#219,.T.) ;
#229=EDGE_CURVE('',#223,#221,#228,.T.) ;
#246=EDGE_CURVE('',#245,#223,#243,.F.) ;
#253=EDGE_CURVE('',#252,#221,#250,.F.) ;
#258=EDGE_CURVE('',#245,#252,#257,.T.) ;
#275=EDGE_CURVE('',#252,#245,#274,.T.) ;
#294=EDGE_CURVE('',#293,#93,#291,.T.) ;
#301=EDGE_CURVE('',#300,#95,#298,.T.) ;
#306=EDGE_CURVE('',#293,#300,#305,.F.) ;
#318=EDGE_CURVE('',#300,#293,#317,.F.) ;
#339=EDGE_CURVE('',#336,#338,#334,.T.) ;
#344=EDGE_CURVE('',#338,#336,#343,.T.) ;
#359=EDGE_CURVE('',#336,#300,#358,.F.) ;
#364=EDGE_CURVE('',#338,#293,#363,.F.) ;
#390=EDGE_CURVE('',#193,#389,#387,.F.) ;
#397=EDGE_CURVE('',#195,#396,#394,.F.) ;
#402=EDGE_CURVE('',#396,#389,#401,.T.) ;
#414=EDGE_CURVE('',#389,#396,#413,.T.) ;
#433=EDGE_CURVE('',#432,#252,#430,.F.) ;
#440=EDGE_CURVE('',#439,#245,#437,.F.) ;
#445=EDGE_CURVE('',#432,#439,#444,.T.) ;
#457=EDGE_CURVE('',#439,#432,#456,.T.) ;
#474=EDGE_CURVE('',#389,#439,#473,.T.) ;
#479=EDGE_CURVE('',#396,#432,#478,.T.) ;
#116=EDGE_LOOP('',(#117,#118,#119,#120)) ;
#133=EDGE_LOOP('',(#134,#135,#136,#137)) ;
#164=EDGE_LOOP('',(#165,#166,#167,#168)) ;
#176=EDGE_LOOP('',(#177,#178,#179,#180)) ;
#202=EDGE_LOOP('',(#203,#204)) ;
#206=EDGE_LOOP('',(#207,#208)) ;
#230=EDGE_LOOP('',(#231,#232)) ;
#259=EDGE_LOOP('',(#260,#261,#262,#263)) ;
#276=EDGE_LOOP('',(#277,#278,#279,#280)) ;
#307=EDGE_LOOP('',(#308,#309,#310,#311)) ;
#319=EDGE_LOOP('',(#320,#321,#322,#323)) ;
#345=EDGE_LOOP('',(#346,#347)) ;
#365=EDGE_LOOP('',(#366,#367,#368,#369)) ;
#377=EDGE_LOOP('',(#378,#379,#380,#381)) ;
#403=EDGE_LOOP('',(#404,#405,#406,#407)) ;
#415=EDGE_LOOP('',(#416,#417,#418,#419)) ;
#446=EDGE_LOOP('',(#447,#448,#449,#450)) ;
#458=EDGE_LOOP('',(#459,#460,#461,#462)) ;
#480=EDGE_LOOP('',(#481,#482,#483,#484)) ;
#492=EDGE_LOOP('',(#493,#494,#495,#496)) ;
#121=FACE_OUTER_BOUND('',#116,.T.) ;
#138=FACE_OUTER_BOUND('',#133,.T.) ;
#169=FACE_OUTER_BOUND('',#164,.T.) ;
#181=FACE_OUTER_BOUND('',#176,.T.) ;
#205=FACE_OUTER_BOUND('',#202,.T.) ;
#233=FACE_OUTER_BOUND('',#230,.T.) ;
#264=FACE_OUTER_BOUND('',#259,.T.) ;
#281=FACE_OUTER_BOUND('',#276,.T.) ;
#312=FACE_OUTER_BOUND('',#307,.T.) ;
#324=FACE_OUTER_BOUND('',#319,.T.) ;
#348=FACE_OUTER_BOUND('',#345,.T.) ;
#370=FACE_OUTER_BOUND('',#365,.T.) ;
#382=FACE_OUTER_BOUND('',#377,.T.) ;
#408=FACE_OUTER_BOUND('',#403,.T.) ;
#420=FACE_OUTER_BOUND('',#415,.T.) ;
#451=FACE_OUTER_BOUND('',#446,.T.) ;
#463=FACE_OUTER_BOUND('',#458,.T.) ;
#485=FACE_OUTER_BOUND('',#480,.T.) ;
#497=FACE_OUTER_BOUND('',#492,.T.) ;
#61=GEOMETRIC_SET('NONE',(#59,#71,#80,#81)) ;
#60=GEOMETRICALLY_BOUNDED_SURFACE_SHAPE_REPRESENTATION('NONE',(#61),#46) ;
#45=UNCERTAINTY_MEASURE_WITH_UNIT(LENGTH_MEASURE(0.005),#41,'distance_accuracy_value','CONFUSED CURVE UNCERTAINTY') ;
#54=LINE('Line',#51,#53) ;
#66=LINE('Line',#63,#65) ;
#75=LINE('Line',#72,#74) ;
#100=LINE('Line',#97,#99) ;
#114=LINE('Line',#111,#113) ;
#148=LINE('Line',#145,#147) ;
#162=LINE('Line',#159,#161) ;
#291=LINE('Line',#288,#290) ;
#298=LINE('Line',#295,#297) ;
#387=LINE('Line',#384,#386) ;
#394=LINE('Line',#391,#393) ;
#430=LINE('Line',#427,#429) ;
#437=LINE('Line',#434,#436) ;
#2=MECHANICAL_CONTEXT(' ',#1,'mechanical') ;
#24=PERSONAL_ADDRESS(' ',' ',' ',' ',' ',' ',' ',' ',' ',' ',' ',' ',(#22),' ') ;
#187=PLANE('Plane',#186) ;
#215=PLANE('Plane',#214) ;
#330=PLANE('Plane',#329) ;
#43=PLANE_ANGLE_MEASURE_WITH_UNIT(PLANE_ANGLE_MEASURE(0.0174532925199),#42) ;
#7=PRODUCT_CATEGORY('part',$) ;
#9=PRODUCT_CATEGORY_RELATIONSHIP(' ',' ',#7,#8) ;
#6=PRODUCT_DEFINITION_FORMATION_WITH_SPECIFIED_SOURCE('',' ',#5,.NOT_KNOWN.) ;
#8=PRODUCT_RELATED_PRODUCT_CATEGORY('detail',$,(#5)) ;
#50=SHAPE_DEFINITION_REPRESENTATION(#40,#49) ;
#57=TRIMMED_CURVE('',#54,(#55),(#56),.T.,.CARTESIAN.) ;
#69=TRIMMED_CURVE('',#66,(#67),(#68),.T.,.CARTESIAN.) ;
#78=TRIMMED_CURVE('',#75,(#76),(#77),.T.,.CARTESIAN.) ;
#93=VERTEX_POINT('',#92) ;
#95=VERTEX_POINT('',#94) ;
#102=VERTEX_POINT('',#101) ;
#109=VERTEX_POINT('',#108) ;
#150=VERTEX_POINT('',#149) ;
#157=VERTEX_POINT('',#156) ;
#193=VERTEX_POINT('',#192) ;
#195=VERTEX_POINT('',#194) ;
#221=VERTEX_POINT('',#220) ;
#223=VERTEX_POINT('',#222) ;
#245=VERTEX_POINT('',#244) ;
#252=VERTEX_POINT('',#251) ;
#293=VERTEX_POINT('',#292) ;
#300=VERTEX_POINT('',#299) ;
#336=VERTEX_POINT('',#335) ;
#338=VERTEX_POINT('',#337) ;
#389=VERTEX_POINT('',#388) ;
#396=VERTEX_POINT('',#395) ;
#432=VERTEX_POINT('',#431) ;
#439=VERTEX_POINT('',#438) ;
#41=(LENGTH_UNIT()NAMED_UNIT(*)SI_UNIT(.MILLI.,.METRE.)) ;
#42=(NAMED_UNIT(*)PLANE_ANGLE_UNIT()SI_UNIT($,.RADIAN.)) ;
#44=(NAMED_UNIT(*)SI_UNIT($,.STERADIAN.)SOLID_ANGLE_UNIT()) ;
#46=(GEOMETRIC_REPRESENTATION_CONTEXT(3)GLOBAL_UNCERTAINTY_ASSIGNED_CONTEXT((#45))GLOBAL_UNIT_ASSIGNED_CONTEXT((#41,#42,#44))REPRESENTATION_CONTEXT(' ',' ')) ;
ENDSEC;
END-ISO-10303-21;
